Eeyore Slipknot

Tekst piosenki

  • Tekst piosenki s314ryt
Tuning= Drop D Down 1/2 steps

riff 1a
C# |-11-11-11-11-11-11-----------|
G# |-11-11-11-11-11-11-----------|
E |--9--9--9--9--9--9-----------|
B |----------------------6------|
F# |----------------------6------|
B |----------------------4------|

(2ND guitar comes in after 9th time)
riff 1b
B |-0-0-0-0-0-0----1------------|
F# |-0-0-0-0-0-0----1------------|
B |-0-0-0-0-0-0----1------------|

riff 2
E |----------7-7--8-8-8-8--7-7--|
B |-5-5-5-5--7-7--8-8-8-8--7-7--|
F# |-5-5-5-5--5-5--6-6-6-6--5-5--|
B |-3-3-3-3---------------------|

riff 3
B |-4-4-4-4-4-4---1--0----------|


riff 4a
B |-0-0-0-0-0-0-0-0----5^-5^-5^----0-0-0-0-0-0-0-0---5-8-7-8--|
PM---------------| PM---------------|

riff 4b
B |-5-8-7-8-|

riff 5

B |-0-----5^-5^-5^---0------5-8-7-5-|





Oceń to opracowanie
Kontrybucje:
s314ryt
s314ryt
anonim