Spit It Out Slipknot

Tuning B-Fis-B-E-Gis-Cis

Fig1
B |-0---0---1---0-0-|-0---1---0---1---|
F#|-0---0---1---0-0-|-0---1---0---1---|
B |-0---0---1---0-0-|-0---1---0---1---|
1 + 2 + 3 + 4 + 1 + 2 + 3 + 4 +

Fig2
B |-3---2---3---1---|
F#|-3---2---3---1---| Work out rhythm for ya self
B |-3---2---3---1---|

Fig3
B |-0---6-0---7~~~~~|
Fis|-----------------|
B |-----------------|

Fig4a
B |-0---0---1---0-0-|-0---1---0---1---|
Fis|-----------------|-----------------|
B |-----------------|-----------------|
1 + 2 + 3 + 4 + 1 + 2 + 3 + 4 +

Fig4b
B |-0-0-0-----------|-----------------|
F#|-0-0-0-----------|-----------------|
B |-0-0-0-----------|-----------------|

Fig4c
B |-----------------|-----------------|
Fis|-----------------|-----------------|
B |-0---0---1---0-0-|-0---1---0---1---|
1 + 2 + 3 + 4 + 1 + 2 + 3 + 4 +

Order

Fig1 x 12 P.M. (start when Corey shouts "killed me")
Fig2 x 8
Fig3 x 10
Fig1 x 8 P.M.
Fig2 x 8
(After bubble effect)
Fig4a + 4b x 4
Fig4a + 4c x 4
Fig1 x 8
Fig2 x 8
Fig2 x 8 P.M. (different rhythm)

P.M. = Palm Mute



Oceń to opracowanie
Kontrybucje:
s314ryt
s314ryt
anonim