0

Cicha noc Kolędy

Tekst piosenki i tabulatura

Cicha noc "  -  kolęda w stylu rock  ( ton. B  ) - metrum 4/4


Tab guitar 1 - riff

E1-------------------------|---------------------------|
H2-------------------------|---------------------------|
G3--3----3---3-3-----------|--3----3---3-3-------------|
D4--3----3---3-3----0-1-0--|--3----3---3-3-------------|
A5--1----1---1-1---1-----3-|--1----1---1-1---1--0------|
E6----------------1--------|-----------------------3---|

E1-----------------------|-----------------------------|
H2--6----6-\-5-4----4----|---------------3---3---------|
G3--5----5---5-5----5----|----3----3-----1------1------|
D4--3----3---3-3----3----|----3----3-----3---------3---|
A5--3----3---3-3----3----|----1----1-------------------|
E6-----------------------|-----------------------------|

E1------------------6----|-----------------------------|
H2--------4---------5----|---------------4-----3-------|
G3------3---3-------5----|----3----3-------3-----3-----|
D4----5-------5-----5----|----3----3---------5-----3---|
A5--6--------------------|----1----1-------------------|
E6-----------------------|-----------------------------|

E1------------------6----|-----------------------------|
H2--------4---------5----|-----------------------------|
G3------3---3-------5----|----3----3---3-3-------------|
D4----5-------5-----5----|----3----3---3-3-------------|
A5--6--------------------|----1----1---1-1---1--0------|
E6-----------------------|-------------------------3---|

E1------------------------|---------3-------------3-----|
H2--6--6--------4--4------|-------3---3----5----5---5---|
G3--5----5------5----5----|-----3-------3--3--3-------3-|
D4--3------3----3------3--|---5------------5------------|
A5--3-----------3---------|---5------------3------------|
E6------------------------|---3-------------------------|

E1------------------------|-----------------------------|
H2-------------------6----|-----------------------------|
G3--3----3-X---------5----|---3-------------3-----------|
D4--3----3-X----3----3-X--|---3-----0-1-0---3-----------|
A5--1----1-X----3----3-X--|---1----1-----3--1-----------|
E6------------------------|-------1---------------------|


Tab guitar 2 - melody

E1-------------------------|--------------------------|
H2-------------------------|--------------------------|
G3--10----10B-(10)---------|--10----10B-(10)----------|
D4-----------------12~~----|------------------12~~----|
A5-------------------------|--------------------------|
E6-------------------------|--------------------------|

E1-------------------------|--------------------------|
H2--13~~--13--10~~---10----|--11~~~~-11---------------|
G3-------------------------|--10~~~~------10~~--\-----|
D4-------------------------|--------------------------|
A5-------------------------|--------------------------|
E6-------------------------|--------------------------|

E1-------------------------|--------------------------|
H2-----------11~~---10-----|--------------------------|
G3--12~~--12-----------12--|--10----10B-(10)----------|
D4-------------------------|------------------12--12~~|
A5-------------------------|--------------------------|
E6-------------------------|--------------------------|

E1-------------------------|--------------------------|
H2-----------11~~---10-----|--------------------------|
G3--12~~--12-----------12--|--10----10B-(10)----------|
D4-------------------------|------------------12--12~~|
A5-------------------------|--------------------------|
E6-------------------------|--------------------------|

E1-------------------------|--------------------------|
H2-/-13~~--13-15b~~-13-----|---------/---15~~~~-------|
G3---------------------14--|-/-15~~-------------------|
D4-------------------------|--------------------------|
A5-------------------------|--------------------------|
E6-------------------------|--------------------------|

E1-------------------------|--------------------------|
H2--11---------------------|--------------------------|
G3------10-----10----------|--------------------------|
D4---------12------13--10--|-\-8~~~~~~-\--------------|
A5-------------------------|--------------------------|
E6-------------------------|--------------------------|





Oceń to opracowanie
Ocena czytelników: Słaby+ 7 głosów
Kontrybucje:
3EYE
3EYE

Informacje o Piosence

"Stille nacht" kolęda austriacka

Dodaj własne wykonanie

Umiesz zagrać tą piosenkę? Nagraj swoje wykonanie i pokaż innym użytkownikom jak grasz!
anonim
  • Anonimowy użytkownik
    Gitarzysta 3 lata temu

    fighter_15
    to jest duet na dwie gitary

  • fighter_15
    fighter_15 10 lat temu

    fajnie ale , żebym wiedział o co w tym chodzi.,,