0
0

Cicha noc Kolędy

||-0---2p0---------|-0---2p0---------|-7---7---4---4---|-5---5---0-------|
||----------2------|----------2------|-----------------|-----------------|
||-----------------|-----------------|-----------------|-----------------|
||-----------------|-----------------|-----------------|-----------------|
||-0--------0------|-0--------0------|-----------------|-0-------0-------|
||-----------------|-----------------|-0-------0-------|-----------------|


|-2--2--5---4--2--|-0---2p0---------|-2--2--5---4--2--|-0---2p0---------|
|-----------------|----------2---2--|-----------------|----------2---2--|
|-----------------|-----------------|-----------------|-----------------|
|-0--0------------|-----------------|-0--0------------|-----------------|
|-------0---------|-0--------0------|-------0---------|-0--------0------|
|-----------------|-----------------|-----------------|-----------------|


|-7--7--10--7--4--|-5-----9---------|-5--------0------|-------------0---|
|-----------------|-----------------|----5------------|-3--0--------2---|
|-----------------|-----------------|-------6---------|--------2----2---|
|-----------------|-----------------|-----------------|----------or-2---|
|-----------------|-0------0--------|-0---------------|--------0----0---|
|-0-----0---------|-----------------|----------0------|-----------------|


Oceń to opracowanie
Ocena czytelników: Dobry 108 głosów

Informacje o Piosence

"Stille nacht" kolęda austriacka
anonim
  • Kacper
    Anonim
    Super!
    · Zgłoś · 4 lata temu
  • Kacper
    duda
    a te 0 9 to razem czy odzielnie
    · Zgłoś · 6 lat temu
  • Kacper
    Lol
    Coś jest nie tak....
    · Zgłoś · 6 lat temu
  • Kacper
    Anonim
    jakie bicie do akordów?
    · Zgłoś · 6 lat temu
  • Kacper
    koraxd
    lol
    · Zgłoś · 6 lat temu
  • Kacper
    muzyczny
    polecam capodapster ustawić na 1 progu ;) ja tak gram : )
    · Zgłoś · 6 lat temu
  • Kacper
    gitarzysta
    Świetne!
    · Zgłoś · 7 lat temu
  • Kacper
    Megi123
    :D :)
    · Zgłoś · 7 lat temu
  • Kacper
    Lol
    To jest super
    · Zgłoś · 7 lat temu
  • Kacper
    Anonimek.
    W jakiej to tonacji?
    · Zgłoś · 7 lat temu
Wszystkie komentarze