Mizerna cicha Kolędy

metrum 3/4, jako intro można dać 4 ostatnie takty niższej tonacji
gitara 1.
|-7-7-7-|-5---5-|-3-3-3-|-2-----|-0-0-2-|-3-2-0-|-7-----|-7----|
|-------|-------|-------|-----0-|-------|-------|-------|------|
|-------|-------|-------|-------|-------|-------|-------|------|
|-------|-------|-------|-------|-------|-------|-------|------|
|-------|-------|-------|-------|-------|-------|-------|------|
|-------|-------|-------|-------|-------|-------|-------|------|


|-7-7-7-|-5---5-|-3-3-3-|-2---2-|-0-0-2-|-3---2-|-0-----|-0----||
|-------|-------|-------|-------|-------|-------|-------|------||
|-------|-------|-------|-------|-------|-------|-------|------||
|-------|-------|-------|-------|-------|-------|-------|------||
|-------|-------|-------|-------|-------|-------|-------|------||
|-------|-------|-------|-------|-------|-------|-------|------||

gitara 2. to samo niżej, t.j.
|-------|-------|-------|-------|-------|-------|-------|------|
|-0-0-0-|-------|-------|-------|-------|-------|-0-----|-0----|
|-------|-2---2-|-0-0-0-|-------|-------|-0-----|-------|------|
|-------|-------|-------|-4-----|-2-2-4-|---4-2-|-------|------|
|-------|-------|-------|-----2-|-------|-------|-------|------|
|-------|-------|-------|-------|-------|-------|-------|------|


|-------|-------|-------|-------|-------|-------|-------|------||
|-0-0-0-|-------|-------|-------|-------|-------|-------|------||
|-------|-2---2-|-0-0-0-|-------|-------|-0-----|-------|------||
|-------|-------|-------|-4-----|-2-2-4-|-----4-|-2-----|-2----||
|-------|-------|-------|-----2-|-------|-------|-------|------||
|-------|-------|-------|-------|-------|-------|-------|------||

akordy: | e | a | e | H7 | e | e | e | H7 |
| e | a | e | H7 | e | e H7| e | e ||



Oceń to opracowanie
Ocena czytelników: Dobry 26 głosów
Kontrybucje:
3EYE
3EYE
anonim
  • Kacper
    jula
    akordy nie podpadły mi, ale tabulatura superrrrrr
    · Zgłoś · 6 lat temu
  • Olka
    Świetna tabulatura :)
    · Zgłoś · 9 lat temu