Konkurs na nową zwrotkę Morskich Opowieści!

Napisz własną zwrotkę "Morskich Opowieści", nagraj ją w postaci filmu i prześlij na adres redkacji śpiewnika aby wziąć udział w losowaniu wyjątkowego ukulele i wspaniałych kapodastrów.

Szczegóły konkursu
0
0

Triumfy Króla niebieskiego (Tryumfy) Kolędy

E1|---------------------------------
H2|-------------------------0-------
G3|-----0-----------0-0-2-2-----0---
D4|-0-------0-----------0-----------
A5|---------------------------------
E6|-3-------3-------3-------3-------   2x

Tryumfy Króla Niebieskiego
Zstąpiły z nieba wysokiego


E1|--------------------------------
H2|-------0------------------------
G3|-2-1-2---2------0---0-2---------
D4|-0-------0----4---4-----4-------
A5|----------------0-------5-------
E6|--------------------------------  2x

Pobudziły pasterzów
dobytku swego stróżów


E1|---------------------------------
H2|-------------------------0-------
G3|---------0-------2---2-----------
D4|-0---0-----------0---------------
A5|-5-------5-----------------------
E6|-------------------------3-------

śpiewaniem, śpiewaniem


E1|----------------------------------
Hsus2|----------------------------------
G3|-2-------2-------0----------------
D4|-0-------0------------------------
A5|----------------------------------
E6|-----------------3----------------

śpiewaniem
Oceń to opracowanie

Dodaj własne wykonanie

Umiesz zagrać tą piosenkę? Nagraj swoje wykonanie i pokaż innym jak grasz! Konkurs Morskie Opowieści
anonim