Popraw Opracowanie Usuń
Transponuj
0

Wysoki brzeg Dundee Szanty

Chwyty na gitarę
  • Chwyty na gitarę Adios720
    6 ulubionych
|-------------------------------------------------------------------------------|
|---------1-------------------------------------1-----------------------------|
|----0-2---2-0-2-0---0-2--------2---0-2----2-0-2-0------------------|
|-3-------------------3------3-0-2---3--------------------3-0-2-------0-|
|----------------------------------------------------------------------2-2----|
|-------------------------------------------------------------------------------|


|--------------------------------------------------------------------------|
|-3-1---------------------------------3-1-------------------------------|
|------2-3-0-2-0---0-2---------2-------2-3-0-2-0-----------------|
|--------------------3-----3-0-2-----------------------3-0-2------0--|
|-----------------------------------------------------------------0-0----|
|--------------------------------------------------------------------------|


        F        a    d
1.Brzeg wysoki jest w Dundee,
       a                  d
   Zbiega w dół i znów się wspina,
      F       a            d
   Dobre stocznie, klipry w nich,
      g     d        A7            d
   Zgrabniuśkie jak dziewczyna.

   Nie widziałeś? - To Quebec,
   Zbiega w dół i znów się wspina,
   Nastroszony drewnem brzeg drewnem brzeg,
   Ze szkockich gór dziewczyna.

                      B   F           C7  F
            Ref.: Hej, hej, jak długi rejs,
                        g                  d            A7
                    Zbiega w dół i znów się wspina
                      B   F       C7      F
                    Na stromy fali grzbiet
                      g                 A7            d
                    Ze szkockich gór dziewczyna.

2.Zakurzony Charleston,
Perkalowa sukienczyna.
Bawełniany czesze lok
W lusterku morza sinym.

Gdzieś na końcu mapy jest
Port, skąd nikt nie odpłynął
Nie wiesz kiedy czeka cię
Ostatni rejs do Hilo.

Ref.: Hej, hej do Hilo Bay!
Zbiega w dół...

I powrócisz do Dundee,
Nie na długo się zatrzymasz,
Dobre stocznie, klipry w nich
Zgrabniuśkie jak dziewczyna.

F,Am,Dm,Gm,A7,A#,C7
Oceń to opracowanie
Ocena czytelników: Niczego sobie 6 głosów

7 865 wyświetleń
Autor opracowania
Adios720
  • Teledysk

Współpraca

W nowym śpiewniku możesz poprawiać istniejące opracowania i zdobywać punkty Karmy. Zapoznaj się z zasadami kontrybucji.
anonim
Znaleziono 2 komentarze.
  • Anonimowy użytkownik
    zzawęgła 2 lata temu

    Nie byłoby od rzeczy dodać, że ten tekst - i wiele jeszcze dalszych - napisali dwaj panowie, Gałkowski i Stroiński. Ich imion nie pamiętam niestety

  • studentka
    studentka 5 lat temu

    Jakie bicie do tego? Podzieli się ktoś? :)