0
0

Pieśń Wielorybników Szanty

  • Chwyty na gitarę Początkujący Tonacja C
    242 ulubione
  • Chwyty na gitarę Początkujący
    4 ulubione
|-0-5-5-0-2-3-2-0---5-5-0-2-3-0-5-5-0-2-3-2-0-2-0-0----------|
|-----------------------3---------------------------------------------3-1----|
|---------------------------------------------------------------------------2-|
|------------------------------------------------------------------------------|
|------------------------------------------------------------------------------|
|------------------------------------------------------------------------------|



|-5-7-8-7-5-0-5-5-7-3-5-5-7-8-7-5-3-0------------------------|
|---------------------------------------------------1-3-3-1-1-0-------|
|--------------------------------------------------------------------0-2-|
|--------------------------------------------------------------------------|
|--------------------------------------------------------------------------|
|--------------------------------------------------------------------------|


1.
Nasz  „Diaament” prawie geotów już,
W cieśnainach nie ma krey.
Na kaei piękne peanny stoją,
W doczach błeyszczą łzay.
Kapaitan w niebo wleepia wzrok,
Ruszaamy lada dzieeń.
Płyniaemy tam gdzie słeońca blask
Nie mdąci neocy ciaeń.

Ref.:
A więc krzaycz eoch! aOch!
Odwaagę w seercu miaej.
Wieloraybów cielska grCoźne sGą,
Lecz dFostanieemy jae.

2.
Ej paanno, po co łzey,
Nic niae zatrzyma mniee,
Bo praędzej w wodach kwieat zakwitnie,
Ndiż wyceofam saię.
No niae płacz, wreócę tu,
Nasz laos nie taki złey,
Bo daa dukatów weór za tran
I wideloreybie kłay.

Ref.:
A więc krzaycz eoch! aOch!
Odwaagę w seercu miaej.
Wieloraybów cielska grCoźne sGą,
Lecz dFostanieemy jae.

3.
Na daeku stary weąchał wiatr,
Lunaetę w ręku mieał.
Na łaodziach, co zewisały już
Z harpdunem keażdy staał.
Dmaucha tu i dmeucha tam
Ograomne stado w kreąg.
Harpauny, wiosła, leiny brać
I cidągnij breachu ciaąg!

Ref.:
A więc krzaycz eoch! aOch!
Odwaagę w seercu miaej.
Wieloraybów cielska grCoźne sGą,
Lecz dFostanieemy jae.

wolniej
I adla wieloGryba ajuż
OsGtatni to adzień,
dBo śmiały harpunnik
aUdGerza aweń.


Oceń to opracowanie
Ocena czytelników: Niczego sobie 86 głosów
anonim
  • dVinci
    mi bardziej pasują te podane przez Matessocha - zwłaszcza jeśli chodzi o refren...
    · Zgłoś · 10 lat temu
  • Muciaa
    też mam takie chwyty jak Matessoch
    · Zgłoś · 12 lat temu
  • Ada [w necie Astrid LaStrange]
    Kojarzy mi się ze spływami kajakowymi.
    · Zgłoś · 13 lat temu
  • Matessoch
    Mi bardziej pasuje:)
    d e a
    W oczach błyszczą łzy.
    i
    a e a
    Ref.: A więc krzycz och! Och!
    a e a
    Odwagę w sercu miej.
    a C G
    Wielorybów cielska groźne są,
    F e a
    Lecz dostaniemy je.
    · Zgłoś · 14 lat temu
  • Kasika
    Genialne chwyty i piosenka też ;) Pozdrawiam :):):)
    · Zgłoś · 14 lat temu